ISO-10303-21;
HEADER;
FILE_DESCRIPTION (( 'STEP AP203' ),
    '1' );
FILE_NAME ('00406526.STEP',
    '2021-07-19T07:45:31',
    ( '' ),
    ( '' ),
    'SwSTEP 2.0',
    'SolidWorks 2020',
    '' );
FILE_SCHEMA (( 'CONFIG_CONTROL_DESIGN' ));
ENDSEC;

DATA;
#1 = CIRCLE ( 'NONE', #192, 3.350000000000000533 ) ;
#2 = CIRCLE ( 'NONE', #185, 2.250000000000000444 ) ;
#3 = DIRECTION ( 'NONE',  ( -1.000000000000000000, -0.000000000000000000, -0.000000000000000000 ) ) ;
#4 = EDGE_CURVE ( 'NONE', #17, #316, #1, .T. ) ;
#5 = CARTESIAN_POINT ( 'NONE',  ( 8.349999999999997868, 0.000000000000000000, 0.000000000000000000 ) ) ;
#6 = CARTESIAN_POINT ( 'NONE',  ( 8.349999999999997868, 0.000000000000000000, 0.000000000000000000 ) ) ;
#7 = CARTESIAN_POINT ( 'NONE',  ( 8.349999999999997868, 2.250000000000000444, 0.000000000000000000 ) ) ;
#8 = DIRECTION ( 'NONE',  ( -1.000000000000000000, -0.000000000000000000, -0.000000000000000000 ) ) ;
#9 = PERSON_AND_ORGANIZATION ( #286, #251 ) ;
#10 = ADVANCED_FACE ( 'NONE', ( #181 ), #83, .T. ) ;
#11 = AXIS2_PLACEMENT_3D ( 'NONE', #109, #131, #240 ) ;
#12 = CARTESIAN_POINT ( 'NONE',  ( 8.349999999999997868, -3.350000000000000533, -4.102566777143633281E-16 ) ) ;
#13 = PERSON_AND_ORGANIZATION ( #286, #251 ) ;
#14 = SHAPE_DEFINITION_REPRESENTATION ( #46, #112 ) ;
#15 = CC_DESIGN_APPROVAL ( #333, ( #193 ) ) ;
#16 = PERSON_AND_ORGANIZATION ( #286, #251 ) ;
#17 = VERTEX_POINT ( 'NONE', #49 ) ;
#18 = VECTOR ( 'NONE', #130, 1000.000000000000000 ) ;
#19 = VERTEX_POINT ( 'NONE', #323 ) ;
#20 = ORIENTED_EDGE ( 'NONE', *, *, #127, .T. ) ;
#21 = VERTEX_POINT ( 'NONE', #55 ) ;
#22 = AXIS2_PLACEMENT_3D ( 'NONE', #6, #8, #115 ) ;
#23 = EDGE_LOOP ( 'NONE', ( #122, #204, #70, #120 ) ) ;
#24 = CARTESIAN_POINT ( 'NONE',  ( 0.000000000000000000, 0.000000000000000000, 0.000000000000000000 ) ) ;
#25 = EDGE_CURVE ( 'NONE', #21, #43, #86, .T. ) ;
#26 = CARTESIAN_POINT ( 'NONE',  ( 0.000000000000000000, 0.000000000000000000, 2.250000000000000444 ) ) ;
#27 = LOCAL_TIME ( 15, 45, 31.00000000000000000, #85 ) ;
#28 = DIRECTION ( 'NONE',  ( 0.000000000000000000, 0.000000000000000000, 1.000000000000000000 ) ) ;
#29 = CARTESIAN_POINT ( 'NONE',  ( 8.349999999999997868, 0.000000000000000000, 0.000000000000000000 ) ) ;
#30 = CARTESIAN_POINT ( 'NONE',  ( 0.000000000000000000, 0.000000000000000000, 0.000000000000000000 ) ) ;
#31 = DIRECTION ( 'NONE',  ( 1.000000000000000000, 0.000000000000000000, 0.000000000000000000 ) ) ;
#32 = CIRCLE ( 'NONE', #227, 2.250000000000000444 ) ;
#33 = VECTOR ( 'NONE', #62, 1000.000000000000000 ) ;
#34 = COORDINATED_UNIVERSAL_TIME_OFFSET ( 8, 0, .AHEAD. ) ;
#35 = APPROVAL_DATE_TIME ( #90, #253 ) ;
#36 = PRODUCT ( '00406526', '00406526', '', ( #84 ) ) ;
#37 = CYLINDRICAL_SURFACE ( 'NONE', #155, 2.250000000000000444 ) ;
#38 = DIRECTION ( 'NONE',  ( 0.000000000000000000, 0.000000000000000000, 1.000000000000000000 ) ) ;
#39 = DIRECTION ( 'NONE',  ( -0.000000000000000000, 0.000000000000000000, -1.000000000000000000 ) ) ;
#40 = EDGE_LOOP ( 'NONE', ( #175, #290 ) ) ;
#41 = AXIS2_PLACEMENT_3D ( 'NONE', #135, #245, #156 ) ;
#42 = ORIENTED_EDGE ( 'NONE', *, *, #4, .T. ) ;
#43 = VERTEX_POINT ( 'NONE', #321 ) ;
#44 = PRODUCT_RELATED_PRODUCT_CATEGORY ( 'detail', '', ( #36 ) ) ;
#45 = VERTEX_POINT ( 'NONE', #241 ) ;
#46 = PRODUCT_DEFINITION_SHAPE ( 'NONE', 'NONE',  #315 ) ;
#47 = AXIS2_PLACEMENT_3D ( 'NONE', #320, #295, #246 ) ;
#48 = ORIENTED_EDGE ( 'NONE', *, *, #66, .F. ) ;
#49 = CARTESIAN_POINT ( 'NONE',  ( 11.69999999999999929, 2.051283388571816887E-16, 0.000000000000000000 ) ) ;
#50 = FACE_OUTER_BOUND ( 'NONE', #171, .T. ) ;
#51 = APPLICATION_CONTEXT ( 'configuration controlled 3d designs of mechanical parts and assemblies' ) ;
#52 = DIRECTION ( 'NONE',  ( 0.000000000000000000, 0.000000000000000000, 1.000000000000000000 ) ) ;
#53 = LINE ( 'NONE', #242, #342 ) ;
#54 = AXIS2_PLACEMENT_3D ( 'NONE', #273, #186, #236 ) ;
#55 = CARTESIAN_POINT ( 'NONE',  ( 0.000000000000000000, 0.000000000000000000, 3.350000000000000089 ) ) ;
#56 = DESIGN_CONTEXT ( 'detailed design', #51, 'design' ) ;
#57 = CARTESIAN_POINT ( 'NONE',  ( 8.349999999999997868, 0.000000000000000000, 2.250000000000000444 ) ) ;
#58 = DIRECTION ( 'NONE',  ( 0.000000000000000000, 0.000000000000000000, 1.000000000000000000 ) ) ;
#59 = DIRECTION ( 'NONE',  ( -0.000000000000000000, 0.000000000000000000, 1.000000000000000000 ) ) ;
#60 = APPLICATION_PROTOCOL_DEFINITION ( 'international standard', 'config_control_design', 1994, #161 ) ;
#61 = LOCAL_TIME ( 15, 45, 31.00000000000000000, #248 ) ;
#62 = DIRECTION ( 'NONE',  ( -1.000000000000000000, -0.000000000000000000, -0.000000000000000000 ) ) ;
#63 = SPHERICAL_SURFACE ( 'NONE', #167, 3.350000000000000533 ) ;
#64 = DATE_TIME_ROLE ( 'classification_date' ) ;
#65 = VERTEX_POINT ( 'NONE', #292 ) ;
#66 = EDGE_CURVE ( 'NONE', #45, #314, #32, .T. ) ;
#67 = PERSON_AND_ORGANIZATION_ROLE ( 'classification_officer' ) ;
#68 = DATE_AND_TIME ( #335, #304 ) ;
#69 = ORIENTED_EDGE ( 'NONE', *, *, #159, .T. ) ;
#70 = ORIENTED_EDGE ( 'NONE', *, *, #264, .F. ) ;
#71 = EDGE_CURVE ( 'NONE', #45, #19, #329, .T. ) ;
#72 = ORIENTED_EDGE ( 'NONE', *, *, #200, .F. ) ;
#73 = VERTEX_POINT ( 'NONE', #157 ) ;
#74 = VERTEX_POINT ( 'NONE', #57 ) ;
#75 = CC_DESIGN_DATE_AND_TIME_ASSIGNMENT ( #249, #64, ( #193 ) ) ;
#76 = AXIS2_PLACEMENT_3D ( 'NONE', #24, #129, #345 ) ;
#77 = DIRECTION ( 'NONE',  ( 0.000000000000000000, 0.000000000000000000, 1.000000000000000000 ) ) ;
#78 = CARTESIAN_POINT ( 'NONE',  ( 8.349999999999997868, 0.000000000000000000, 0.000000000000000000 ) ) ;
#79 = FACE_OUTER_BOUND ( 'NONE', #179, .T. ) ;
#80 = CC_DESIGN_APPROVAL ( #253, ( #315 ) ) ;
#81 = DIRECTION ( 'NONE',  ( 1.000000000000000000, 0.000000000000000000, 0.000000000000000000 ) ) ;
#82 = APPLICATION_PROTOCOL_DEFINITION ( 'international standard', 'config_control_design', 1994, #51 ) ;
#83 = CYLINDRICAL_SURFACE ( 'NONE', #336, 3.350000000000000089 ) ;
#84 = MECHANICAL_CONTEXT ( 'NONE', #161, 'mechanical' ) ;
#85 = COORDINATED_UNIVERSAL_TIME_OFFSET ( 8, 0, .AHEAD. ) ;
#86 = CIRCLE ( 'NONE', #54, 3.350000000000000089 ) ;
#87 = CIRCLE ( 'NONE', #205, 2.250000000000000444 ) ;
#88 = PERSON_AND_ORGANIZATION ( #286, #251 ) ;
#89 = FACE_OUTER_BOUND ( 'NONE', #337, .T. ) ;
#90 = DATE_AND_TIME ( #347, #318 ) ;
#91 = LINE ( 'NONE', #198, #145 ) ;
#92 = ADVANCED_FACE ( 'NONE', ( #325 ), #297, .F. ) ;
#93 = CARTESIAN_POINT ( 'NONE',  ( 0.000000000000000000, 0.000000000000000000, 0.000000000000000000 ) ) ;
#94 = DIRECTION ( 'NONE',  ( 0.000000000000000000, 0.000000000000000000, -1.000000000000000000 ) ) ;
#95 = CIRCLE ( 'NONE', #22, 2.250000000000000444 ) ;
#96 = EDGE_LOOP ( 'NONE', ( #317, #311, #262, #230, #128 ) ) ;
#97 = ORIENTED_EDGE ( 'NONE', *, *, #153, .T. ) ;
#98 = EDGE_CURVE ( 'NONE', #73, #287, #250, .T. ) ;
#99 = ORIENTED_EDGE ( 'NONE', *, *, #264, .T. ) ;
#100 = AXIS2_PLACEMENT_3D ( 'NONE', #30, #3, #28 ) ;
#101 = ORIENTED_EDGE ( 'NONE', *, *, #66, .T. ) ;
#102 = CC_DESIGN_PERSON_AND_ORGANIZATION_ASSIGNMENT ( #308, #67, ( #193 ) ) ;
#103 = VERTEX_POINT ( 'NONE', #26 ) ;
#104 = DIRECTION ( 'NONE',  ( -0.000000000000000000, 0.000000000000000000, -1.000000000000000000 ) ) ;
#105 = CIRCLE ( 'NONE', #330, 3.350000000000000533 ) ;
#106 = DIRECTION ( 'NONE',  ( -1.000000000000000000, -0.000000000000000000, -0.000000000000000000 ) ) ;
#107 = DIRECTION ( 'NONE',  ( -1.000000000000000000, -0.000000000000000000, -0.000000000000000000 ) ) ;
#108 = LINE ( 'NONE', #271, #18 ) ;
#109 = CARTESIAN_POINT ( 'NONE',  ( 8.349999999999997868, 0.000000000000000000, 0.000000000000000000 ) ) ;
#110 = CC_DESIGN_PERSON_AND_ORGANIZATION_ASSIGNMENT ( #328, #279, ( #263 ) ) ;
#111 = CARTESIAN_POINT ( 'NONE',  ( 8.349999999999997868, 0.000000000000000000, 0.000000000000000000 ) ) ;
#112 = ADVANCED_BREP_SHAPE_REPRESENTATION ( '00406526', ( #147, #121 ), #216 ) ;
#113 = CARTESIAN_POINT ( 'NONE',  ( 8.349999999999997868, 4.102566777143633281E-16, -3.350000000000000089 ) ) ;
#114 = CIRCLE ( 'NONE', #170, 3.350000000000000089 ) ;
#115 = DIRECTION ( 'NONE',  ( 0.000000000000000000, 0.000000000000000000, 1.000000000000000000 ) ) ;
#116 = COORDINATED_UNIVERSAL_TIME_OFFSET ( 8, 0, .AHEAD. ) ;
#117 = APPROVAL_PERSON_ORGANIZATION ( #88, #333, #142 ) ;
#118 = CALENDAR_DATE ( 2021, 19, 7 ) ;
#119 = CC_DESIGN_PERSON_AND_ORGANIZATION_ASSIGNMENT ( #310, #140, ( #315 ) ) ;
#120 = ORIENTED_EDGE ( 'NONE', *, *, #137, .F. ) ;
#121 = AXIS2_PLACEMENT_3D ( 'NONE', #293, #215, #31 ) ;
#122 = ORIENTED_EDGE ( 'NONE', *, *, #4, .F. ) ;
#123 = ADVANCED_FACE ( 'NONE', ( #208 ), #162, .T. ) ;
#124 = ORIENTED_EDGE ( 'NONE', *, *, #98, .F. ) ;
#125 = DIRECTION ( 'NONE',  ( 0.000000000000000000, 1.000000000000000000, 1.224646799147353207E-16 ) ) ;
#126 = AXIS2_PLACEMENT_3D ( 'NONE', #164, #300, #160 ) ;
#127 = EDGE_CURVE ( 'NONE', #151, #21, #108, .T. ) ;
#128 = ORIENTED_EDGE ( 'NONE', *, *, #243, .T. ) ;
#129 = DIRECTION ( 'NONE',  ( -1.000000000000000000, -0.000000000000000000, -0.000000000000000000 ) ) ;
#130 = DIRECTION ( 'NONE',  ( -1.000000000000000000, -0.000000000000000000, -0.000000000000000000 ) ) ;
#131 = DIRECTION ( 'NONE',  ( -0.000000000000000000, 0.000000000000000000, -1.000000000000000000 ) ) ;
#132 = FACE_OUTER_BOUND ( 'NONE', #229, .T. ) ;
#133 = EDGE_CURVE ( 'NONE', #19, #74, #95, .T. ) ;
#134 = SPHERICAL_SURFACE ( 'NONE', #41, 2.250000000000000444 ) ;
#135 = CARTESIAN_POINT ( 'NONE',  ( 8.349999999999997868, 0.000000000000000000, 0.000000000000000000 ) ) ;
#136 = PERSON_AND_ORGANIZATION ( #286, #251 ) ;
#137 = EDGE_CURVE ( 'NONE', #316, #151, #114, .T. ) ;
#138 = CARTESIAN_POINT ( 'NONE',  ( 8.349999999999997868, 0.000000000000000000, 0.000000000000000000 ) ) ;
#139 = CARTESIAN_POINT ( 'NONE',  ( 0.000000000000000000, 3.350000000000000089, 0.000000000000000000 ) ) ;
#140 = PERSON_AND_ORGANIZATION_ROLE ( 'creator' ) ;
#141 = CARTESIAN_POINT ( 'NONE',  ( 0.000000000000000000, 2.755455298081544778E-16, -2.250000000000000444 ) ) ;
#142 = APPROVAL_ROLE ( '' ) ;
#143 = DIRECTION ( 'NONE',  ( -1.000000000000000000, -0.000000000000000000, -0.000000000000000000 ) ) ;
#144 = DIRECTION ( 'NONE',  ( 0.000000000000000000, 1.000000000000000000, 0.000000000000000000 ) ) ;
#145 = VECTOR ( 'NONE', #305, 1000.000000000000000 ) ;
#146 = ORIENTED_EDGE ( 'NONE', *, *, #225, .F. ) ;
#147 = MANIFOLD_SOLID_BREP ( 'Shell1', #148 ) ;
#148 = CLOSED_SHELL ( 'NONE', ( #326, #281, #259, #177, #187, #10, #123, #92, #169 ) ) ;
#149 = ORIENTED_EDGE ( 'NONE', *, *, #341, .T. ) ;
#150 = AXIS2_PLACEMENT_3D ( 'NONE', #29, #104, #294 ) ;
#151 = VERTEX_POINT ( 'NONE', #238 ) ;
#152 = CARTESIAN_POINT ( 'NONE',  ( 8.349999999999997868, 0.000000000000000000, 0.000000000000000000 ) ) ;
#153 = EDGE_CURVE ( 'NONE', #233, #103, #313, .T. ) ;
#154 = ORIENTED_EDGE ( 'NONE', *, *, #137, .T. ) ;
#155 = AXIS2_PLACEMENT_3D ( 'NONE', #93, #143, #267 ) ;
#156 = DIRECTION ( 'NONE',  ( 0.000000000000000000, 1.000000000000000000, 0.000000000000000000 ) ) ;
#157 = CARTESIAN_POINT ( 'NONE',  ( 8.349999999999997868, 3.350000000000000533, 0.000000000000000000 ) ) ;
#158 = PERSON_AND_ORGANIZATION_ROLE ( 'design_owner' ) ;
#159 = EDGE_CURVE ( 'NONE', #74, #314, #275, .T. ) ;
#160 = DIRECTION ( 'NONE',  ( 0.000000000000000000, 0.000000000000000000, 1.000000000000000000 ) ) ;
#161 = APPLICATION_CONTEXT ( 'configuration controlled 3d designs of mechanical parts and assemblies' ) ;
#162 = SPHERICAL_SURFACE ( 'NONE', #150, 3.350000000000000533 ) ;
#163 = SPHERICAL_SURFACE ( 'NONE', #11, 2.250000000000000444 ) ;
#164 = CARTESIAN_POINT ( 'NONE',  ( 8.349999999999997868, 0.000000000000000000, 0.000000000000000000 ) ) ;
#165 = CC_DESIGN_DATE_AND_TIME_ASSIGNMENT ( #331, #218, ( #315 ) ) ;
#166 = DIRECTION ( 'NONE',  ( 1.000000000000000000, 0.000000000000000000, 0.000000000000000000 ) ) ;
#167 = AXIS2_PLACEMENT_3D ( 'NONE', #280, #39, #144 ) ;
#168 = CALENDAR_DATE ( 2021, 19, 7 ) ;
#169 = ADVANCED_FACE ( 'NONE', ( #132 ), #134, .F. ) ;
#170 = AXIS2_PLACEMENT_3D ( 'NONE', #111, #212, #52 ) ;
#171 = EDGE_LOOP ( 'NONE', ( #146, #203, #97, #174, #231 ) ) ;
#172 = APPROVAL_DATE_TIME ( #68, #333 ) ;
#173 = APPROVAL_DATE_TIME ( #252, #322 ) ;
#174 = ORIENTED_EDGE ( 'NONE', *, *, #195, .F. ) ;
#175 = ORIENTED_EDGE ( 'NONE', *, *, #243, .F. ) ;
#176 = APPROVAL_PERSON_ORGANIZATION ( #136, #253, #301 ) ;
#177 = ADVANCED_FACE ( 'NONE', ( #79 ), #265, .T. ) ;
#178 = ORIENTED_EDGE ( 'NONE', *, *, #127, .F. ) ;
#179 = EDGE_LOOP ( 'NONE', ( #99, #257, #206, #235, #178 ) ) ;
#180 = ORIENTED_EDGE ( 'NONE', *, *, #289, .T. ) ;
#181 = FACE_OUTER_BOUND ( 'NONE', #283, .T. ) ;
#182 =( LENGTH_UNIT ( ) NAMED_UNIT ( * ) SI_UNIT ( .MILLI., .METRE. ) );
#183 = DIRECTION ( 'NONE',  ( -1.000000000000000000, -0.000000000000000000, -0.000000000000000000 ) ) ;
#184 = DIRECTION ( 'NONE',  ( 0.000000000000000000, 1.000000000000000000, 1.224646799147352961E-16 ) ) ;
#185 = AXIS2_PLACEMENT_3D ( 'NONE', #5, #276, #237 ) ;
#186 = DIRECTION ( 'NONE',  ( -1.000000000000000000, -0.000000000000000000, -0.000000000000000000 ) ) ;
#187 = ADVANCED_FACE ( 'NONE', ( #223, #224 ), #334, .F. ) ;
#188 = DIRECTION ( 'NONE',  ( -1.000000000000000000, -0.000000000000000000, -0.000000000000000000 ) ) ;
#189 = DIRECTION ( 'NONE',  ( 0.000000000000000000, 1.224646799147353207E-16, -1.000000000000000000 ) ) ;
#190 = APPROVAL_STATUS ( 'not_yet_approved' ) ;
#191 = CARTESIAN_POINT ( 'NONE',  ( 8.349999999999997868, 0.000000000000000000, 0.000000000000000000 ) ) ;
#192 = AXIS2_PLACEMENT_3D ( 'NONE', #152, #261, #125 ) ;
#193 = SECURITY_CLASSIFICATION ( '', '', #196 ) ;
#194 = APPROVAL_ROLE ( '' ) ;
#195 = EDGE_CURVE ( 'NONE', #74, #103, #91, .T. ) ;
#196 = SECURITY_CLASSIFICATION_LEVEL ( 'unclassified' ) ;
#197 = DIRECTION ( 'NONE',  ( -1.000000000000000000, -0.000000000000000000, -0.000000000000000000 ) ) ;
#198 = CARTESIAN_POINT ( 'NONE',  ( 0.000000000000000000, 0.000000000000000000, 2.250000000000000444 ) ) ;
#199 = AXIS2_PLACEMENT_3D ( 'NONE', #191, #278, #38 ) ;
#200 = EDGE_CURVE ( 'NONE', #17, #73, #105, .T. ) ;
#201 = CALENDAR_DATE ( 2021, 19, 7 ) ;
#202 = ORIENTED_EDGE ( 'NONE', *, *, #25, .T. ) ;
#203 = ORIENTED_EDGE ( 'NONE', *, *, #296, .T. ) ;
#204 = ORIENTED_EDGE ( 'NONE', *, *, #200, .T. ) ;
#205 = AXIS2_PLACEMENT_3D ( 'NONE', #222, #197, #332 ) ;
#206 = ORIENTED_EDGE ( 'NONE', *, *, #213, .T. ) ;
#207 = EDGE_LOOP ( 'NONE', ( #48, #288, #285, #69 ) ) ;
#208 = FACE_OUTER_BOUND ( 'NONE', #23, .T. ) ;
#209 = CIRCLE ( 'NONE', #303, 3.350000000000000089 ) ;
#210 = CARTESIAN_POINT ( 'NONE',  ( 0.000000000000000000, 0.000000000000000000, 0.000000000000000000 ) ) ;
#211 = DIRECTION ( 'NONE',  ( -0.000000000000000000, 0.000000000000000000, 1.000000000000000000 ) ) ;
#212 = DIRECTION ( 'NONE',  ( -1.000000000000000000, -0.000000000000000000, -0.000000000000000000 ) ) ;
#213 = EDGE_CURVE ( 'NONE', #287, #43, #327, .T. ) ;
#214 = CARTESIAN_POINT ( 'NONE',  ( 0.000000000000000000, 0.000000000000000000, 0.000000000000000000 ) ) ;
#215 = DIRECTION ( 'NONE',  ( 0.000000000000000000, 0.000000000000000000, 1.000000000000000000 ) ) ;
#216 =( GEOMETRIC_REPRESENTATION_CONTEXT ( 3 ) GLOBAL_UNCERTAINTY_ASSIGNED_CONTEXT ( ( #277 ) ) GLOBAL_UNIT_ASSIGNED_CONTEXT ( ( #182, #270, #272 ) ) REPRESENTATION_CONTEXT ( 'NONE', 'WORKASPACE' ) );
#217 = DIRECTION ( 'NONE',  ( -1.000000000000000000, -0.000000000000000000, -0.000000000000000000 ) ) ;
#218 = DATE_TIME_ROLE ( 'creation_date' ) ;
#219 = DIRECTION ( 'NONE',  ( 1.000000000000000000, 0.000000000000000000, 0.000000000000000000 ) ) ;
#220 = APPROVAL_STATUS ( 'not_yet_approved' ) ;
#221 = AXIS2_PLACEMENT_3D ( 'NONE', #139, #219, #94 ) ;
#222 = CARTESIAN_POINT ( 'NONE',  ( 0.000000000000000000, 0.000000000000000000, 0.000000000000000000 ) ) ;
#223 = FACE_BOUND ( 'NONE', #40, .T. ) ;
#224 = FACE_OUTER_BOUND ( 'NONE', #339, .T. ) ;
#225 = EDGE_CURVE ( 'NONE', #65, #19, #239, .T. ) ;
#226 = APPROVAL_STATUS ( 'not_yet_approved' ) ;
#227 = AXIS2_PLACEMENT_3D ( 'NONE', #244, #211, #81 ) ;
#228 = CIRCLE ( 'NONE', #47, 3.350000000000000089 ) ;
#229 = EDGE_LOOP ( 'NONE', ( #255, #101, #149, #338 ) ) ;
#230 = ORIENTED_EDGE ( 'NONE', *, *, #195, .T. ) ;
#231 = ORIENTED_EDGE ( 'NONE', *, *, #133, .F. ) ;
#232 = CC_DESIGN_PERSON_AND_ORGANIZATION_ASSIGNMENT ( #9, #158, ( #36 ) ) ;
#233 = VERTEX_POINT ( 'NONE', #141 ) ;
#234 = AXIS2_PLACEMENT_3D ( 'NONE', #214, #217, #298 ) ;
#235 = ORIENTED_EDGE ( 'NONE', *, *, #25, .F. ) ;
#236 = DIRECTION ( 'NONE',  ( 0.000000000000000000, 0.000000000000000000, 1.000000000000000000 ) ) ;
#237 = DIRECTION ( 'NONE',  ( 0.000000000000000000, 0.000000000000000000, 1.000000000000000000 ) ) ;
#238 = CARTESIAN_POINT ( 'NONE',  ( 8.349999999999997868, 0.000000000000000000, 3.350000000000000089 ) ) ;
#239 = CIRCLE ( 'NONE', #199, 2.250000000000000444 ) ;
#240 = DIRECTION ( 'NONE',  ( 0.000000000000000000, 1.000000000000000000, 0.000000000000000000 ) ) ;
#241 = CARTESIAN_POINT ( 'NONE',  ( 10.59999999999999787, 1.377727649040772389E-16, 0.000000000000000000 ) ) ;
#242 = CARTESIAN_POINT ( 'NONE',  ( 0.000000000000000000, 2.755455298081544778E-16, -2.250000000000000444 ) ) ;
#243 = EDGE_CURVE ( 'NONE', #103, #233, #87, .T. ) ;
#244 = CARTESIAN_POINT ( 'NONE',  ( 8.349999999999997868, 0.000000000000000000, 0.000000000000000000 ) ) ;
#245 = DIRECTION ( 'NONE',  ( -0.000000000000000000, 0.000000000000000000, -1.000000000000000000 ) ) ;
#246 = DIRECTION ( 'NONE',  ( 0.000000000000000000, 0.000000000000000000, 1.000000000000000000 ) ) ;
#247 = AXIS2_PLACEMENT_3D ( 'NONE', #306, #260, #346 ) ;
#248 = COORDINATED_UNIVERSAL_TIME_OFFSET ( 8, 0, .AHEAD. ) ;
#249 = DATE_AND_TIME ( #201, #27 ) ;
#250 = CIRCLE ( 'NONE', #340, 3.350000000000000089 ) ;
#251 = ORGANIZATION ( 'UNSPECIFIED', 'UNSPECIFIED', '' ) ;
#252 = DATE_AND_TIME ( #168, #282 ) ;
#253 = APPROVAL ( #190, 'UNSPECIFIED' ) ;
#254 = COORDINATED_UNIVERSAL_TIME_OFFSET ( 8, 0, .AHEAD. ) ;
#255 = ORIENTED_EDGE ( 'NONE', *, *, #71, .F. ) ;
#256 = CC_DESIGN_APPROVAL ( #322, ( #263 ) ) ;
#257 = ORIENTED_EDGE ( 'NONE', *, *, #98, .T. ) ;
#258 = ORIENTED_EDGE ( 'NONE', *, *, #302, .F. ) ;
#259 = ADVANCED_FACE ( 'NONE', ( #89 ), #63, .T. ) ;
#260 = DIRECTION ( 'NONE',  ( -1.000000000000000000, -0.000000000000000000, -0.000000000000000000 ) ) ;
#261 = DIRECTION ( 'NONE',  ( 0.000000000000000000, 1.224646799147353207E-16, -1.000000000000000000 ) ) ;
#262 = ORIENTED_EDGE ( 'NONE', *, *, #159, .F. ) ;
#263 = PRODUCT_DEFINITION_FORMATION_WITH_SPECIFIED_SOURCE ( 'ANY', '', #36, .NOT_KNOWN. ) ;
#264 = EDGE_CURVE ( 'NONE', #151, #73, #269, .T. ) ;
#265 = CYLINDRICAL_SURFACE ( 'NONE', #76, 3.350000000000000089 ) ;
#266 = DIRECTION ( 'NONE',  ( 0.000000000000000000, 0.000000000000000000, 1.000000000000000000 ) ) ;
#267 = DIRECTION ( 'NONE',  ( 0.000000000000000000, 0.000000000000000000, 1.000000000000000000 ) ) ;
#268 = CARTESIAN_POINT ( 'NONE',  ( 8.349999999999997868, 0.000000000000000000, 0.000000000000000000 ) ) ;
#269 = CIRCLE ( 'NONE', #247, 3.350000000000000089 ) ;
#270 =( NAMED_UNIT ( * ) PLANE_ANGLE_UNIT ( ) SI_UNIT ( $, .RADIAN. ) );
#271 = CARTESIAN_POINT ( 'NONE',  ( 0.000000000000000000, 0.000000000000000000, 3.350000000000000089 ) ) ;
#272 =( NAMED_UNIT ( * ) SI_UNIT ( $, .STERADIAN. ) SOLID_ANGLE_UNIT ( ) );
#273 = CARTESIAN_POINT ( 'NONE',  ( 0.000000000000000000, 0.000000000000000000, 0.000000000000000000 ) ) ;
#274 = CARTESIAN_POINT ( 'NONE',  ( 0.000000000000000000, 4.102566777143633281E-16, -3.350000000000000089 ) ) ;
#275 = CIRCLE ( 'NONE', #126, 2.250000000000000444 ) ;
#276 = DIRECTION ( 'NONE',  ( -1.000000000000000000, -0.000000000000000000, -0.000000000000000000 ) ) ;
#277 = UNCERTAINTY_MEASURE_WITH_UNIT (LENGTH_MEASURE( 1.000000000000000082E-05 ), #182, 'distance_accuracy_value', 'NONE');
#278 = DIRECTION ( 'NONE',  ( -1.000000000000000000, -0.000000000000000000, -0.000000000000000000 ) ) ;
#279 = PERSON_AND_ORGANIZATION_ROLE ( 'design_supplier' ) ;
#280 = CARTESIAN_POINT ( 'NONE',  ( 8.349999999999997868, 0.000000000000000000, 0.000000000000000000 ) ) ;
#281 = ADVANCED_FACE ( 'NONE', ( #50 ), #37, .F. ) ;
#282 = LOCAL_TIME ( 15, 45, 31.00000000000000000, #116 ) ;
#283 = EDGE_LOOP ( 'NONE', ( #312, #180, #154, #20, #258 ) ) ;
#284 = CC_DESIGN_PERSON_AND_ORGANIZATION_ASSIGNMENT ( #13, #307, ( #263 ) ) ;
#285 = ORIENTED_EDGE ( 'NONE', *, *, #133, .T. ) ;
#286 = PERSON ( 'UNSPECIFIED', 'UNSPECIFIED', 'UNSPECIFIED', ('UNSPECIFIED'), ('UNSPECIFIED'), ('UNSPECIFIED') ) ;
#287 = VERTEX_POINT ( 'NONE', #113 ) ;
#288 = ORIENTED_EDGE ( 'NONE', *, *, #71, .T. ) ;
#289 = EDGE_CURVE ( 'NONE', #287, #316, #228, .T. ) ;
#290 = ORIENTED_EDGE ( 'NONE', *, *, #153, .F. ) ;
#291 = CC_DESIGN_SECURITY_CLASSIFICATION ( #193, ( #263 ) ) ;
#292 = CARTESIAN_POINT ( 'NONE',  ( 8.349999999999997868, 2.755455298081544778E-16, -2.250000000000000444 ) ) ;
#293 = CARTESIAN_POINT ( 'NONE',  ( 0.000000000000000000, 0.000000000000000000, 0.000000000000000000 ) ) ;
#294 = DIRECTION ( 'NONE',  ( 0.000000000000000000, 1.000000000000000000, 0.000000000000000000 ) ) ;
#295 = DIRECTION ( 'NONE',  ( -1.000000000000000000, -0.000000000000000000, -0.000000000000000000 ) ) ;
#296 = EDGE_CURVE ( 'NONE', #65, #233, #53, .T. ) ;
#297 = CYLINDRICAL_SURFACE ( 'NONE', #100, 2.250000000000000444 ) ;
#298 = DIRECTION ( 'NONE',  ( 0.000000000000000000, 0.000000000000000000, -1.000000000000000000 ) ) ;
#299 = FACE_OUTER_BOUND ( 'NONE', #207, .T. ) ;
#300 = DIRECTION ( 'NONE',  ( -1.000000000000000000, -0.000000000000000000, -0.000000000000000000 ) ) ;
#301 = APPROVAL_ROLE ( '' ) ;
#302 = EDGE_CURVE ( 'NONE', #43, #21, #209, .T. ) ;
#303 = AXIS2_PLACEMENT_3D ( 'NONE', #210, #188, #58 ) ;
#304 = LOCAL_TIME ( 15, 45, 31.00000000000000000, #254 ) ;
#305 = DIRECTION ( 'NONE',  ( -1.000000000000000000, -0.000000000000000000, -0.000000000000000000 ) ) ;
#306 = CARTESIAN_POINT ( 'NONE',  ( 8.349999999999997868, 0.000000000000000000, 0.000000000000000000 ) ) ;
#307 = PERSON_AND_ORGANIZATION_ROLE ( 'creator' ) ;
#308 = PERSON_AND_ORGANIZATION ( #286, #251 ) ;
#309 = APPROVAL_PERSON_ORGANIZATION ( #16, #322, #194 ) ;
#310 = PERSON_AND_ORGANIZATION ( #286, #251 ) ;
#311 = ORIENTED_EDGE ( 'NONE', *, *, #341, .F. ) ;
#312 = ORIENTED_EDGE ( 'NONE', *, *, #213, .F. ) ;
#313 = CIRCLE ( 'NONE', #234, 2.250000000000000444 ) ;
#314 = VERTEX_POINT ( 'NONE', #7 ) ;
#315 = PRODUCT_DEFINITION ( 'UNKNOWN', '', #263, #56 ) ;
#316 = VERTEX_POINT ( 'NONE', #12 ) ;
#317 = ORIENTED_EDGE ( 'NONE', *, *, #296, .F. ) ;
#318 = LOCAL_TIME ( 15, 45, 31.00000000000000000, #34 ) ;
#319 = CARTESIAN_POINT ( 'NONE',  ( 0.000000000000000000, 0.000000000000000000, 0.000000000000000000 ) ) ;
#320 = CARTESIAN_POINT ( 'NONE',  ( 8.349999999999997868, 0.000000000000000000, 0.000000000000000000 ) ) ;
#321 = CARTESIAN_POINT ( 'NONE',  ( 0.000000000000000000, 4.102566777143633281E-16, -3.350000000000000089 ) ) ;
#322 = APPROVAL ( #220, 'UNSPECIFIED' ) ;
#323 = CARTESIAN_POINT ( 'NONE',  ( 8.349999999999997868, -2.250000000000000444, -2.755455298081544285E-16 ) ) ;
#324 = AXIS2_PLACEMENT_3D ( 'NONE', #268, #189, #184 ) ;
#325 = FACE_OUTER_BOUND ( 'NONE', #96, .T. ) ;
#326 = ADVANCED_FACE ( 'NONE', ( #299 ), #163, .F. ) ;
#327 = LINE ( 'NONE', #274, #33 ) ;
#328 = PERSON_AND_ORGANIZATION ( #286, #251 ) ;
#329 = CIRCLE ( 'NONE', #324, 2.250000000000000444 ) ;
#330 = AXIS2_PLACEMENT_3D ( 'NONE', #138, #59, #166 ) ;
#331 = DATE_AND_TIME ( #118, #61 ) ;
#332 = DIRECTION ( 'NONE',  ( 0.000000000000000000, 0.000000000000000000, -1.000000000000000000 ) ) ;
#333 = APPROVAL ( #226, 'UNSPECIFIED' ) ;
#334 = PLANE ( 'NONE',  #221 ) ;
#335 = CALENDAR_DATE ( 2021, 19, 7 ) ;
#336 = AXIS2_PLACEMENT_3D ( 'NONE', #319, #106, #77 ) ;
#337 = EDGE_LOOP ( 'NONE', ( #72, #42, #344, #124 ) ) ;
#338 = ORIENTED_EDGE ( 'NONE', *, *, #225, .T. ) ;
#339 = EDGE_LOOP ( 'NONE', ( #202, #343 ) ) ;
#340 = AXIS2_PLACEMENT_3D ( 'NONE', #78, #183, #266 ) ;
#341 = EDGE_CURVE ( 'NONE', #314, #65, #2, .T. ) ;
#342 = VECTOR ( 'NONE', #107, 1000.000000000000000 ) ;
#343 = ORIENTED_EDGE ( 'NONE', *, *, #302, .T. ) ;
#344 = ORIENTED_EDGE ( 'NONE', *, *, #289, .F. ) ;
#345 = DIRECTION ( 'NONE',  ( 0.000000000000000000, 0.000000000000000000, 1.000000000000000000 ) ) ;
#346 = DIRECTION ( 'NONE',  ( 0.000000000000000000, 0.000000000000000000, 1.000000000000000000 ) ) ;
#347 = CALENDAR_DATE ( 2021, 19, 7 ) ;
ENDSEC;
END-ISO-10303-21;
